EmB7CG





Andrés Calamaro - Estadio Azteca   By Momilandia


Intro:

Em en 8vo traste                                                              C

                                                  

e|---"8"--9-8-8--8---9--8-8-------8-----------------------2--3---2--0-0-----------0-----

B|----9----------9----------8--8-----11-11-9-9--------4-------4-------------1--0-1---4--

G|---10---------10-------------9-----------------0--4----------------------0------------

D|---10---------10--------------------------------------------------------2-------------

A|----8----------8-------------------------------------------------------3--------------

E|----8----------8------------------------------0-----------------------0---------------

 

 G                                           B7           Em

e|-0--3--0-0-------------------------3-------------2--3-3---2--------------2----0--|

B|------------3-3----------0--------3---1-0---0--4--------4----2-----------4----0--

G|----------------0-0--2-2---------0--------2------------------4---2--2----2----0--|

D|--------------------------------0-----------------------------------4----4----2--|

A|-------------------------------2-----------------------------------------2----2--|

E|------------------------------3------------------------------------------2----0--|

 

Rasguido Opcional:

 

¦ ¦ ^ ^ ¦ ^

¦ ¦ ¦ ¦ ¦ ¦

v X ¦ ¦ v ¦

 

Em                       C         
Prendido, a tu botella vacía
           G             B7   
Esa que antes, siempre tuvo gusto a nada
Em                 C
Apretando los dedos, agarrandomé
           G   B7                  Em    B7 Em C G B7 Em
Dándole mi vida, a ese paraavalanchas.  UUUUUUUUUUHHHHHH
  
Em              C                   G     B7 
Cuando era niño, y conocí el Estadio Azteca
                Em                      C
Me quedé duro, me aplastó ver al gigante
                                G         
De grande me volvió a pasar lo mismo
B7                          Em      B7 Em C G B7 Em
Pero ya estaba duro mucho antes.  UUUUUUUUUUUUHHHHHH
  
          C                G
Dicen que hay, dicen que hay
 B7                  Em
Un mundo de tentaciones
  C              G
También hay caramelos
 B7                Em
Con forma de corazones.       
 C             G
Dicen que hay bueno malo,
B7                    Em
Dicen que hay más o menos
         C              G
Dicen que hay algo que tener
B7                Em    B7 Em C G
Y no muchos tenemos, UUUUUUHHHH
B7                Em    B7 Em C G B7 
y no muchos tenemos .UUUUUUUHHH
  
Em                         C
Prendido a tu botella vacía
           G           B7
Esa que antes siempre tuvo gusto a nada.
  
Em  G  C B7 Repite