G G7 C Am D Bm C7





Duncan Dhu - Esos ojos negros -


 Intro: 
G                 G7
Esos ojos negros,
                       C
esos ojos negros no los quiero ver llorar
       Am                    D
tan solo quiero escuchar, dime
               C       D
lo que quiero oir, dime
           C      D
que vas a reir, dime
                C               G  C7
dime ahora que duerme la ciudad
 
Hace ya algun tiempo,
hace ya algun tiempo que tu voz parece ser
una pluma y un papel, que cuentan
que van a volar en sue¤os
que seran tus ojos negros,
los que me iluminen al andar
 
Riff: 
] -----------------------------------------------------------------------
] -----------------------------------------------------------------------
] -------------0-2*3*2-0-------------------------------------------------
] ---------0-2-----------2-0---------------------------------------------
] ---0-1-2-------------------2-------------------------------------------
] –3---------------------------------------------------------------------
 
 
Estribillo: 
G        
La lluvia cae sobre el suelo gris
Bm
el tiempo pasa y no puedo reir
G
la noche es larga, mi voz amarga,
Bm
hoy he visto despertar el sol
D
y tus pupilas, brillaran,
C         D         G
pero espera descuida, que ya veras
C         D         G7
los buenos tiempos volveran
C         D         G     C7
pero espera descuida, que ya vendran
C         D       G
la lluvia los devolvera.   
 
Intro(se tocan los acordes de la intro sin letra) 
 
Estribillo() 
 
G                 G7
Esos ojos negros,
                      C
esos ojos negros no los quiero ver llorar
      Am                     D
tan solo quiero escuchar, dime
            C      D
lo que quiero oir, dime
           C     D
que vas a reir, dime
                C             G
dime ahora que duerme la ciudad 
D                C              G
dime ahora que duerme la ciudad
D                C (   pausa  ) G            
dime ahora que duerme la ciudad

 G D G
] ---------------------
] ---------------------
] ---------------------
] ---------0-2—-5-4-5--
] ---0-1-2-------------
] –3-------------------