Extremoduro - Te juzgarán solo por tus errores


Intro
e|-----------------------------------------------------|
B|-----------------------------------------------------|
G|-----------------------------------------------------|
  D|-5------2--5--4---------0---------------0-----0--5---|  
  A|---------------------4---------------3--3--3--3--5---|  
 E|-0------0--0--0------------5-------------------------| 
La segunda parte la repite un par de veces. 
 
(X2)
e|-----------------------------------------------------------------|
B|-----------------------------------------------------------------|
G|-----------------------------------------------------------------|
D|---------5-5-5-5---------5-5-5-5---------5-5-5-5---------4-4-4-4-|
A|---------7-7-7-7---------7-7-7-7---------3-3-3-3---------5-5-5-5-|
E|-0-0-0-0---------0-0-0-0---------0-0-0-0---------0-0-0-0---------|
                           Uh lala la laaaaa
e|-----------------------------------------------------------------|
B|-----------------------------------------------------------------|
G|-----------------------------------------------------------------|
D|---------5-5-5-5---------5-5-5-5---------5-5-5-5---------4-4-4-4-|
A|---------7-7-7-7---------7-7-7-7---------6-6-6-6---------0-0-0-0-|
E|-0-0-0-0---------0-0-0-0---------0-0-0-0---------0-0-0-0---------|
                   uhhhhhhh lala la   (más o menos... por ahí va)
 
e|-----------------------------------------------------------------|
B|-----------------------------------------------------------------|
G|-----------------------------------------------------------------|
D|---------5-5-5-5---------5-5-5-5---------5-5-5-5---------4-4-4-4-|
A|---------7-7-7-7---------7-7-7-7---------3-3-3-3---------5-5-5-5-|
E|-0-0-0-0---------0-0-0-0---------0-0-0-0---------0-0-0-0---------|
 
Puente:
e|-------------0-----------------0----------------|
B|-------------0-----------------0----------------|
G|-------------0-----------------0----------------|
D|-----5-3-5-2-2---------5-3-5-2-2----------------|
A|-----7-5-7-3-3---------7-5-7-3-3----------------|
E|-0-0---------------0-0--------------------------|
 
e|-------------0--------------0-------------------|
B|-------------0--------------0-------------------|
G|-------------0--------------0-------------------|
D|-2-2-0-2-3-5-5----2-2-0-2-3-2-------------------|
A|-3-3-0-3-5-7-7----3-3-0-3-5-3-------------------|
E|------------------------------------------------|
 
Versos: (x2)
e|------------------------------------------------|
B|------------------------------------------------|
G|-------------------------0----------------------|
D|-----5-----5-------4---4---4--------------------|
A|-----7-----7-------5---5-----5------------------|
E|-0-0---0-0---0-0-0---0--------------------------|
Su herida golpead de vez en cuando...
No dejadla jamás que cicatrice...
 
(x2)
e|------------------------------------------------|
B|-------------------------0----------------------|
G|-----5-----5-------4---4---4--------------------|
D|-----7-----7-------5---5-----5------------------|
A|-0-0---0-0---0-0-0---0--------------------------|
E|------------------------------------------------|
Que arroje sangre fresca su dolor
Y eterno viva en su raíz el llanto 
  
(x2)
e|------------------------------------------------|
B|------------------------------------------------|
G|-------------------------0----------------------|
D|-----5-----5-------4---4---4--------------------|
A|-----7-----7-------5---5-----5------------------|
E|-0-0---0-0---0-0-0---0--------------------------|
Y si se arranca a volar gritarle a voces
su culpa que recuerde
 
(x2)
e|------------------------------------------------|
B|-------------------------0----------------------|
G|-----5-----5-------4---4---4--------------------|
D|-----7-----7-------5---5-----5------------------|
A|-0-0---0-0---0-0-0---0--------------------------|
E|------------------------------------------------|
Si en su palabra crecen flores nuevamente
Arrojad pellas de barro oscuro al rostro
 
e|------------------------------------------------|
B|------------------------------------------------|
G|------------------------------------------------|
D|-4-4-muchas veces-------------------------------|
A|-5-5-muchas veces-------------------------------|
E|-2-2-muchas veces-------------------------------|
Pisad su savia roja....
 
e|---------------------------0-0------------------|
B|--------------------------3--3------------------|
G|-------------------------0---0------------------|
D|------------------------4----4------------------|
A|-3----------0----------0-----0------------------|
E|------------------------------------------------|
Talad talad que no descuelle el corazón de música oprimida...
 
Puente(Repetir) 
Versos(Repetir) 
Puente corto(solo primera parte)
 
Final:
con un poco de intuición para las repeticiones se puede tocar con lo siguiente
e|------------------------------------------------|
B|------------------------------------------------|
G|------------------------------------------------|
D|-5----7---5-----7-------------------------------|
A|-7----9---7-----9-------------------------------|
E|-0----0---0-----0-------------------------------|
Tengo más vidas que un gato...
 
e|-----------------------0-------------------------|
B|-----------------------0-------------------------|
G|-----------------------0-------------------------|
D|-4----4----4-------2---2-------------------------|
A|-5----5----5-------3---3-------------------------|
E|-0----0----0----0------0-------------------------|
 
e|------------------------------------------------|
B|------------------------------------------------|
G|------------------------------------------------|
D|-5----7---5-----7-------------------------------|
A|-7----9---7-----9-------------------------------|
E|-0----0---0-----0-------------------------------|
 
e|-----------------------0-------------------------|
B|-----------------------3-------------------------|
G|-----------------------0-------------------------|
D|-4----4----4-------4---4-------------------------|
A|-5----5----5-------3---3-------------------------|
 E|-0----0----0----0------0-------------------------|