DCGB7Em





La parte cantada, se toca rasgando aunque antes de pasar al siguiente acorde se toca el punteo para llenar (queda muy bien). El Cadd9 se sustituye por un C.

 

D         Cadd9       G

-------------------------3---------------------------------

-----------------3-------3---------------------------------

---2h4-2p0-----0-----0---0---------------------------------

-0-----------------2-------------0-2h4-4-------------------

-----------3-3-------------3-0h2---------------------------

-----------------------3-----------------------------------

 D         Cadd9       G

-----------------------------3-----------------------------

-----------------3---------2-3-----------------------------

---2h4-2p0-----0-----0---0---0-4-1h2-4-2-------------------

-0-----------------2---------------------------------------

-----------3-3---------------------------------------------

-----------------------3-----------------------------------

 D         Cadd9       G

-------------------------3---------------------------------

---------------3---------3---------------------------------

---2h4-2p0---------0-----0-------2-2s4-4-2p0---------------

-0---------------2---0---------0---------------------------

-----------3-3-------------0h2-----------------------------

-----------------------3-----------------------------------

 D         Cadd9       G

---------------------------3-------------------------------

-----------------3---3-----3---------3---------------------

---2h4-2p0-----0-----------0-------2-----------------------

-0-----------------2-------------0-------------------------

-----------3-3---------------0h2-------0-2-----------------

-----------------------3-3---------------------------------

 D         Cadd9         G

---------------------------3-------------------------------

-----------------3-----3---3-------------------------------

---2h4-2p0-----0-----0-----0-2s4-4-2p0---------------------

-0-----------------2---------------------------------------

-----------3-3---------------------------------------------

-------------------------3---------------------------------

 D         Cadd9       G

-------------------------3---------------------------------

-----------------3-------3---------------------------------

---2h4-2p0-----0-----0---0---------------------------------

-0-----------------2-----------0-2h4-----------------------

-----------3-3-------------0h2-----------------------------

-----------------------3-----------------------------------

 

 D         Cadd9       G

-------------------------3---------------------------------

-----------------3-------3---------------------------------

-2-2h4-2p0-----0-----0---0-------0-2s4-4-2p0---------------

-------------------2-----------0---------------------------

-----------3-3-------------0h2-----------------------------

-----------------------3-----------------------------------

Hay días que parece que nunca se va a apagar el sol

 

D         Cadd9       G

-------------------------3---------------------------------

-----------------3-------3---------------------------------

-2-2h4-2p0-----0-----0---0-----------0---------------------

-------------------2--------------0----0-------------------

-----------3-3-------------0-0h2---------2-----------------

-----------------------3-----------------------------------

Y otros son más tristes que una despedida en la estación

 

 C            B7            Em

------------------------------0-------3-----2--------------

-----1------------10-7--------0--0-------------------------

-------0---0-------------7----0---2s4---4s2---2s4-0--------

---2-----2------9------9------2----------------------------

-3------------9---------------2----------------------------

----------------------------0-0----------------------------

Es igual que nuestra vida que cuando todo va bien

 

 D         Cadd9       G

-------------------------3---------------------------------

-----------------3-------3---------------------------------

-2-2h4-2p0-----0-----0---0--------2-2s4-4-2p0--------------

-------------------2-----------0---------------------------

-----------3-3-------------0h2-----------------------------

-----------------------3-----------------------------------

Un día tuerces una esquina y te tuerces tú también

 

 D         Cadd9       G

-----------------------------------------------------------

---------------3-----------3-----------3-------------------

-2-2h4-2p0-------0---0-------0---0-------0-----------------

-------------------2-----------0---------------------------

-----------3-3-----------2-----------2-------0h2-----------

-----------------------3-----------0-----------------------

Esa telaraña que cuelga en mi habitación (Aquí no toco punteo)

 

 D           Cadd9         G

---------------------3-------3-----------------------------

-3---3---3-------------3-1---3-----------------------------

-2-2---2---2-----0-----------0--------0-2s4-4-2p0----------

-0-------------2---2---------------0-----------------------

-------------3-----------------0h2-------------------------

---------------------------3-------------------------------

No la quito, no hace nada, solo ocupa su rincón

 

 C        B7          Em

----------------------0-------3-----2----------------------

-1------------10-7----0--0---------------------------------

-0-----0--8--------8--0----2s4---4s2---2s4-0---------------

-2---2----7-7---------2------------------------------------

---3------9-----------2------------------------------------

----------------------0------------------------------------

Yo he crecido cerca de las vías y por eso sé

 

D           C         G

-----------------------------------------------------------

-3-----------------------2---------------------------------

-2-2h4-2p0-0-----0-------0---------------------------------

-0---------2---2---2-----0------0--------------------------

-----------3-3-------3------0h2---0-2----------------------

-----------------------3-----------------------------------

Que la tristeza y la alegría viajan en el mismo tren

 

 D                                     Cadd9  G

---------------------------------------3------3------------

---------------------------------------3------3------------

---2h4-2p0-----------------------------0------0------------

-0-------------------------------------2------0------------

----------------------------------------------2------------

-----------------------------------------------------------

Quieres ver el mundo, mira está debajo de tus pies

 

 

Solo de guitarra: 

--------------------------------------------7--7-----------

----------------------------------3-3---3---10-10-5b7-8-7--

-0-0-2h4-2-0-0h2--2h4-2p0-0-2-0-4-----4--------------------

-----------------------------------------------------------

-----------------------------------------------------------

-----------------------------------------------------------

 

-----------------------------------------------------------

--5---5v---5---8-5---------------------------------------8-

----7--------7-----7-------------------------------7-7s9---

---------------------9---------------5h7-------7-9---------

----------------------------10---5h7-------5s9-------------

-----------------------10s7--------------------------------

 

-----7h10p6b7-10-7------7-10-10-12-10--------15----13b15---

---8---------------10-8----------------15-15----15---------

-9---------------------------------------------------------

-----------------------------------------------------------

-----------------------------------------------------------

-----------------------------------------------------------

 

-13b15b13----------------------15-15-----------------------

----------13-15-15-12--------------------------------------

----------------------12-------16-16v----------------------

-------------------------14-12-----------------------------

-----------------------------------------------------------

-----------------------------------------------------------

 

 

 D         Cadd9       G

-----------------------------------------------------------

-----------------3------2---3------------------------------

---2h4-2p0-----0-----0--0-----0----------------------------

-0-----------------2----0----------------------------------

-----------3-3------------2------0h2-----------------------

-----------------------3-----------------------------------

Con el paso de los años nada es como yo soñé

 

D         Cadd9       G

-----------------------------------------------------------

-----------------3------2---3------------------------------

---2h4-2p0-----0-----0--0-----0----------------------------

-0-----------------2----0----------------------------------

-----------3-3------------2------0h2-----------------------

-----------------------3-----------------------------------

Si no cierras bien los ojos muchas cosas no se ven

 

 C        B7          Em

----------------------0-------3-----2----------------------

-1------------10-7----0------------------------------------

-0-----0--8--------8--0-0-2s4---4s2---2s4-0----------------

-2---2----7-7---------2------------------------------------

---3------9-----------2------------------------------------

----------------------0------------------------------------

No le tengo miedo al diablo, ¿no ves que no puedo arder?

 

 D           C         G

-----------------------------------------------------------

-3-----------------------2---------------------------------

-2-2h4-2p0-0-----0-------0---------------------------------

-0---------2---2---2-----0------0--------------------------

-----------3-3-------3------0h2---0-2----------------------

-----------------------3-----------------------------------

No hay más fuego en el infierno del que hay dentro de mi piel

 

 D         C           G

-----------------------------------------------------------

-3-----------------------2---------------------------------

-2-2h4-2p0-0-----0-------0---------------------------------

-0---------2---2---2-----0------0--------------------------

-----------3-3-------3------0h2---0-2----------------------

-----------------------3-----------------------------------

Que la tristeza y la alegría viajan en el mismo tren

 

 D                                     G

---------------------------------------3-------------------

---------------------------------------3-------------------

---2h4-2p0-----------------------------0-------------------

-0-------------------------------------0-------------------

---------------------------------------2-------------------

---------------------------------------3--3-5-5s7----------

Quieres ver el mundo, mira está debajo de tus pies