Am C Em G D G/B





Metallica - Unforgiven



Intro: (x2)

|---------------------------------|---------------------------------|

|-0-------0-----0-----0-----1-----|-0-------0-----0-----0-----1-----|

|-----2-----2-----2-----2-----2---|-----2-----2-----2-----2-----2---|

|-------2-----2-----2-----2-----2-|-------2-----2-----2-----2-----2-|

|-0-------------------------------|-0-------------------------------|

|---------------------------------|---------------------------------|

Punteo:

---------------------------------|
---------------------------------|
---------2---4-4^5-------5-4-2---|
---------------------------------|
---------------------------------|
---------------------------------|

|---------------------------------|---------------------------------|
|---------------------------------|---------------------------------|
|---------2---4-4^5-------5-2-----|---------2---4-4^5-------5-4-2---|
|---------------------------------|---------------------------------|
|---------------------------------|---------------------------------|
|---------------------------------|---------------------------------|
 
|---------------------------------|---------------------------------|
|---------------------------------|---------------------------------|
|---------2---4-4^5-------5-2-----|---------2---4-4^5----5--------5-|
|---------------------------------|---------------------------------|
|---------------------------------|---------------------------------|
|---------------------------------|---------------------------------|
 
|---------------------------------|---------------------------------|
|---------------------------------|-----------------------3^5-----5-|
|-5-4---------4\----------2-4-2---|-2-----------4-4^5---------------|
|-----5-----------2---------------|---------------------------------|
|---------------------------------|---------------------------------|
|---------------------------------|---------------------------------|
 
|---------------------------------|
|-5-3-----------------------------|
|-----4-------4\--1----4\0-—2-4--2|
|---------------------------------|
|---------------------------------|

 

Intro(Repetir x2)

 

Am          C           Em

New blood joins this earth

 G          D        Am

and quikly he's subdued

Am                  C        Em

through constant pain disgrace

     G         D            Am

the young boy learns their rules

 

    Am        C          Em

with time the child draws in

G              D         Am

this whipping boy done wrong

   Am       C         Em

deprived of all his thoughts

      G           D            Am     G/B        C    G

the young man struggles on and on and on  he's known

  C             G

a vow unto his own

      Am    G/B      C   G

that never from this day

     C            G        Em

his will they'll take away

 

Estribillo: (Se puede tocar con el punteo)

Am          C                G

 what I've felt, what I've known

        Em                         Am

never shined through in what I've shown

      C          G         E                    Am

never be, never see, won't see what might have been

           C                G

what I've felt, what I've known

       Em                          Am

never shined through in what I've shown

       

 C        G        E              Am

never free, never me. so I dub thee unforgiven

 

Intro(Repetir x2)

 

      Am    C       Em

They dedicate their lives

    Am         C        Em

he tries to please them all

  G          D      Am

this bitter man he is

      Am        C       Em

throughout his life the same

 G            D      Am

he's battled constantly

     Am       C      Em

this fight he cannot win

   G     D        Am     G/B      C    G

a tired man they see no longer cares

     C               G

the old man then prepares

    Am   G/B     C    G

to die regretfully

     C               G    Em

that old man here is me

 

Estribillo(Repetir)

 

Punteo chungo:
 

Estribillo(Repetir) 

 

         E             Am    C    G  Em

…so I dub thee unforgiven     uouo

 

Am  C  G  E

 

        C

never free

       G

never me

      E             Am    C    G  E

so I dub thee unforgiven

            C

you labeled me

             G

I'll label you

      E             Am    C    G  E

so I dub thee unforgiven