THE BEATLES - YESTERDAY




Vídeo extraido de la página cifraclub.


The Beatles - Yesterday -


                                     Yesterday            all trouble seem so

G                  G                 F#m                  B7

|---3-3-3---3-3-3-|---3-3-3---3-3-3-||----3-3-3----3-3---|---2-2-2---2-2-3-|

|---3-3-3---3-3-3-|---3-3-3---3-3-3-||----3-3-3----3-3---|---2-2-2---4-4-4-|

|---0-0-0---0-0-0-|---0-0-0---0-0-0-||----0-0-0----0-0---|---2-2-2---2-2-2-|

|-----------------|-----------------||-------------------|-----------------|

|-----------------|-----------------||-------------------|---------2-------|

|-3-------3-------|-3-------3-------||--3-------3------0-|-2---------------|

 

far away          Now It looks as thougth they´re here to stay   Oh I believe

Em         Em/D     C        D7      G       G/F#      Em7         A7

|---0-0-0---0---0-|---0-0-0---2-2-2-|---3-3-3---3---3-|-------------0-0---|

|---0-0-0---0---0-|---1-1-1---1-1-1-|---3-3-3---3---3-|----3-3------2-2---|

|---0-0-0---0---0-|---0-0-0---2-2-2-|---0-0-0---0---0-|----0-0------0-0---|

|-2-------2---0---|---------0-------|-----------------|----2-2------------|

|-----------------|-3---------------|-----------------|----------0------0-|

|-----------------|-----------------|-3-------3---2---|-0------0----------|

 

In   yesterday        Why she          had to go I don´t know she wouldn´t

C    G                B7sus4   B7      Em    D  C   Em/B    Am6       D7

|-0--3-3-----3-3-3--||---0-0-0---2-2-2-|-0--2--3--2--0--|---2-2-2---2-2-2-|

|-1--3-3-----3-3-3-o||---0-0-0---0-0-0-|----------------|---1-1-1---1-1-1-|

|-0--0-0-----0-0-0--||---2-2-2---2-2-2-|----------------|---2-2-2---2-2-2-|

|-------------------||-----------------|-2--0-----------|---------0-------|

|-3----------------o||-2-------2-------|-------3--2-(2)-|-0---------------|

|----3-3-------3----||-----------------|----------------|-----------------|

 

say                I     said     something wrong now I long for yester - day

G                    B7sus4   B7      Em D C    Em/B   Am6       D7       G

|---3-3-3----3-3---|---0-0-0---2-2-2-|-0--2--3--2--0--|---2-2-2---2-2-2-|-3-----||

|---3-3-3----3-3---|---0-0-0---0-0-0-|----------------|---1-1-1---1-1-1-|-3-----||

|---0-0-0----0-0---|---2-2-2---2-2-2-|----------------|---2-2-2---2-2-2-|-0-----||

|------------------|-----------------|-2--0-----------|---------0-------|-------||

|------------------|-2-------2-------|-------3--2-----|-0---------------|-------||

|-3-------3------0-|-----------------|----------------|-----------------|-3-----||

 

2ª Parte:

Suddenly            I’m not half of man I

F#m                  B7

|----3-3-3----3-3---|---2-2-2---2-2-3-|

|----3-3-3----3-3---|---2-2-2---4-4-4-|

|----0-0-0----0-0---|---2-2-2---2-2-2-|

|-------------------|-----------------|

|-------------------|---------2-------|

|--3-------3------0-|-2---------------|

 

Used to be        There’s a shadow hanging over me    Oh yesterday

Em         Em/D     C        D7      G       G/F#      Em7         A7

|---0-0-0---0---0-|---0-0-0---2-2-2-|---3-3-3---3---3-|-------------0-0---|

|---0-0-0---0---0-|---1-1-1---1-1-1-|---3-3-3---3---3-|----3-3------2-2---|

|---0-0-0---0---0-|---0-0-0---2-2-2-|---0-0-0---0---0-|----0-0------0-0---|

|-2-------2---0---|---------0-------|-----------------|----2-2------------|

|-----------------|-3---------------|-----------------|----------0------0-|

|-----------------|-----------------|-3-------3---2---|-0------0----------|

 

Came suddenly        Why she          had to go I don´t know she wouldn´t

C    G                B7sus4   B7      Em    D  C   Em/B    Am6       D7

|-0--3-3-----3-3-3--||---0-0-0---2-2-2-|-0--2--3--2--0--|---2-2-2---2-2-2-|

|-1--3-3-----3-3-3-o||---0-0-0---0-0-0-|----------------|---1-1-1---1-1-1-|

|-0--0-0-----0-0-0--||---2-2-2---2-2-2-|----------------|---2-2-2---2-2-2-|

|-------------------||-----------------|-2--0-----------|---------0-------|

|-3----------------o||-2-------2-------|-------3--2-(2)-|-0---------------|

|----3-3-------3----||-----------------|----------------|-----------------|

 

say                  I     said     something wrong now I long for yester - day

G                    B7sus4   B7      Em D C    Em/B   Am6       D7       G

|---3-3-3----3-3---|---0-0-0---2-2-2-|-0--2--3--2--0--|---2-2-2---2-2-2-|-3-----||

|---3-3-3----3-3---|---0-0-0---0-0-0-|----------------|---1-1-1---1-1-1-|-3-----||

|---0-0-0----0-0---|---2-2-2---2-2-2-|----------------|---2-2-2---2-2-2-|-0-----||

|------------------|-----------------|-2--0-----------|---------0-------|-------||

|------------------|-2-------2-------|-------3--2-----|-0---------------|-------||

|-3-------3------0-|-----------------|----------------|-----------------|-3-----||

 

3ª Parte:

Yesterday           love was such an easy

F#m                  B7

|----3-3-3----3-3---|---2-2-2---2-2-3-|

|----3-3-3----3-3---|---2-2-2---4-4-4-|

|----0-0-0----0-0---|---2-2-2---2-2-2-|

|-------------------|-----------------|

|-------------------|---------2-------|

|--3-------3------0-|-2---------------|

 

Game to play       Now I need a place to hide away     Oh I belive

Em         Em/D     C        D7      G       G/F#      Em7         A7

|---0-0-0---0---0-|---0-0-0---2-2-2-|---3-3-3---3---3-|-------------0-0---|

|---0-0-0---0---0-|---1-1-1---1-1-1-|---3-3-3---3---3-|----3-3------2-2---|

|---0-0-0---0---0-|---0-0-0---2-2-2-|---0-0-0---0---0-|----0-0------0-0---|

|-2-------2---0---|---------0-------|-----------------|----2-2------------|

|-----------------|-3---------------|-----------------|----------0------0-|

|-----------------|-----------------|-3-------3---2---|-0------0----------|

 

In yesterday        Why she          had to go I don´t know she wouldn´t

C    G                B7sus4   B7      Em    D  C   Em/B    Am6       D7

|-0--3-3-----3-3-3--||---0-0-0---2-2-2-|-0--2--3--2--0--|---2-2-2---2-2-2-|

|-1--3-3-----3-3-3-o||---0-0-0---0-0-0-|----------------|---1-1-1---1-1-1-|

|-0--0-0-----0-0-0--||---2-2-2---2-2-2-|----------------|---2-2-2---2-2-2-|

|-------------------||-----------------|-2--0-----------|---------0-------|

|-3----------------o||-2-------2-------|-------3--2-(2)-|-0---------------|

|----3-3-------3----||-----------------|----------------|-----------------|

 

say                  I     said     something wrong now I long for yester - day

G                    B7sus4   B7      Em D C    Em/B   Am6       D7       G

|---3-3-3----3-3---|---0-0-0---2-2-2-|-0--2--3--2--0--|---2-2-2---2-2-2-|-3-----||

|---3-3-3----3-3---|---0-0-0---0-0-0-|----------------|---1-1-1---1-1-1-|-3-----||

|---0-0-0----0-0---|---2-2-2---2-2-2-|----------------|---2-2-2---2-2-2-|-0-----||

|------------------|-----------------|-2--0-----------|---------0-------|-------||

|------------------|-2-------2-------|-------3--2-----|-0---------------|-------||

|-3-------3------0-|-----------------|----------------|-----------------|-3-----||

 

Mm  mm  mm  mm      mm….

G         A7        C G

|---3-3-3---3-3-3-|-3--3-3--------*|

|---3-3-3---2-2-2-|-1--3-3--------*|

|---0-0-0---2-2-2-|-0--0-0--------*|

|-----------------|---------------*|

|---------0-------|-3-------------*|

|-3---------------|----3-3--------*|